花よりさんぽ(DEPATIKA)

アクセスカウンタ

zoom RSS [基礎練紹介] イモムシ 〜左手各指の独立〜

<<   作成日時 : 2010/03/03 23:42   >>

なるほど(納得、参考になった、ヘー) ブログ気持玉 1 / トラックバック 0 / コメント 5

今回は、先日の「JOY RIDE」の成長記録の中で出てきた基礎練の「イモムシ」を紹介します。

やはりこちらも学生時代に先輩から教わったものです。教わったものの中では、難易度は上位にランクするかもしれません。

私さんぽが初めてトライしたときは、左手が金縛りにあったように動かなかったです。

とりあえず弾くと、こんな感じです。


三味線みたいな音質なのは、気にしないでください。
サイレントギターの生音ですので。。。

見た感じはそれほど難しそうではありませんが、初めての方は大抵左手が金縛りにあって動かないことが多いようです。学生時代、後輩に教えたときは大抵そうでした。。

難しさは左手の押さえ方にあります。

【左手の押さえかかた】 ↓動画を見ながら読んでください。
 (左手は、1:人差指、2:中指、3:薬指、4:小指、です)

 1. 準備として左手1,2,3,4の指で、4弦5,6,7,8Fを
    押さえます。(このとき触れるだけでなく、押さえてください。)

 2. 1の指を3弦の5Fに移動。その間、他の2,3,4の指は
    4弦を押さえたままにする。で、音を鳴らす。

 3. 2の指を3弦の6Fに移動。その間、1指は3弦を、3,4の指は
    4弦を押さえたままにする。で、音を鳴らす。

 4. 同じ要領で、3の指、4の指と進んでいきます。

 5. さらに、同じ要領で2弦→1弦→2弦→3弦→4弦→5弦→6弦
    →5弦→4弦と進んだら、1セット完了。

 ⇒要するに、移動する左手の指以外は、弦を押さえたままにして、
   動かさずにすることがポイントです。

 慣れるまでは、薬指の移動は特に難しいかもしれません。


TABとしてはいたって単純。

----------------------------5-6-7-8-------------------------
-------------------5-6-7-8---------5-6-7-8-----------------
------------5-6-7-8-------------------------5-6-7-8---------
-(5678←準備)----------------------------------------5-6-7-8--
-----------------------------------------------------------
----------------------------------------------------------

-----------------------------------------------------------
------------------------------------------→繰り返し---------
---------------------------------5-6-7-8--------------------
-------------------------5-6-7-8---------------------------
-5-6-7-8---------5-6-7-8------------------------------------
---------5-6-7-8---------------------------------------------


【練習時いつも注意してる点】
 ・左手の指の第1関節をシッカリ曲げて、弦に対して指を垂直に
  押さえる。
 ・弦を上下に引っ張る力を与えないようにする。(引っ張って
  弦が上下にずれないように。)
 ・フレットのギリギリ近くを押さえる。極力左手を脱力
 ・メトロノームに音をシッカリ合わせる。
 ・速いテンポよりも、ゆっくりのテンポの方が案外難しいので、
  ゆっくりテンポを重点的に。80くらい。
 ・やりすぎて、腱鞘炎にならないように休憩しながら。。
 ・3の指の移動の時は、意図的に4の指の押さえを強くする。


ぜひ、みなさんもチャレンジしてみてくださいね。
動画で見てるよりも、難しいかも。。。

テーマ

関連テーマ 一覧


月別リンク

ブログ気持玉

クリックして気持ちを伝えよう!
ログインしてクリックすれば、自分のブログへのリンクが付きます。
→ログインへ
気持玉数 : 1
なるほど(納得、参考になった、ヘー)

コメント(5件)

内 容 ニックネーム/日時
あ〜〜〜これ、難しいんですよね。
しばらくやってなかったから、またやってみよ!
ぶ〜チャン
2010/03/04 06:00
ああ、これがイモムシですね。
エレキやってたときに毎日やってました。
1フレットから12フレットまでいって戻ってきて、
たしか3パターンくらいあったとおもいます。
指を離さないのが大事な条件ですよね。
それと、速くやるよりメトロノームなどでリズムに正確にピッキングするのが重要。
たしか、リットーミュージックから出ていた「最強のギター教本」だったかな、「雨が降っても風が吹いても毎日しなければなりません」みたいなことが書いてあって、ほんとに毎日やってました。30年も前の話ですが(笑)。
tesa
2010/03/04 23:42
★ぶ〜チャンさん
「イモムシ」って呼び方はローカルみたいですが、結構メジャーな練習法みたいですね。実は、自分も普段ほとんどやってません。調子悪いな〜って時とか、久々に弾くときだけやります。

★tesaさん
毎日やってたなんて、すごいですね。
さんぽ
2010/03/05 21:30
やってみました!!・・・が全然できませんでした
下の弦に移動するのが難しい(;´Д`)
タケ
2010/03/07 21:30
★タケさん
そうなんですよね〜。特に下の弦に移動するとき、自分の手じゃないみたいに、言うことを聞かなくなりますよね。自分も、最初はそうでした。。。

コツをつかむと、結構すぐに出来るようになってきますよ。
さんぽ
2010/03/08 20:52

コメントする help

ニックネーム
本 文
[基礎練紹介] イモムシ 〜左手各指の独立〜 花よりさんぽ(DEPATIKA)/BIGLOBEウェブリブログ
文字サイズ:       閉じる